歌手头像-Sting

St Agnes And The Burning Train

1 2 3 4 5
x

音乐人: Sting

供谱者:
Song: St. Agnes and the Burning Train  (Great Spanish Song)
Artist: Sting
Tabbed by: Zane Russell

play fast.  not holy hella fast, but fast enough so that it sounds
good.

e|---7-8-7---7-8-7---7-8-7---5-7-8---7-535---5-7-5---5-7-5---5-7-5--|
B|------------------------------------------------------------------|
G|------------------------------------------------------------------|
D|------------------------------------------------------------------|
A|------------------------------------------------------------------|
E|------------------------------------------------------------------|

e|-----0-2-3---2-0-2--------7-8-7---7-8-7---7-8-7---5-7-8---7-535---|
B|---0--------------------------------------------------------------|
G|------------------------------------------------------------------|
D|------------------------------------------------------------------|
A|------------------------------------------------------------------|
E|------------------------------------------------------------------|

e|---5-7-5---5-7-5---5-7-5-----0-2-3---2-0-2----232-0---------------|
B|---------------------------0--------------------------------------|
G|------------------------------------------------------------------|
D|------------------------------------------------------------------|
A|------------------------------------------------------------------|
E|------------------------------------------------------------------|

e|---2---0-2-3---2-3-5---3-2-0-----0-2---232-0-------2---0-2-3------|
B|-------------------------------4----------------------------------|
G|------------------------------------------------------------------|
D|------------------------------------------------------------------|
A|------------------------------------------------------------------|
E|------------------------------------------------------------------|

e|---2-3-5---3-2-0------------------7-8-7---7-8-7---7-8-7---5-7-8---|
B|--------------------54--------------------------------------------|
G|----------------------5-4-----------------------------------------|
D|------------------------------------------------------------------|
A|------------------------------------------------------------------|
E|------------------------------------------------------------------|

e|---7-535---5-7-5---5-7-5---5-7-5-----0-2-3---2-0-2-320-2----------|
B|-----------------------------------0------------------------------|
G|------------------------------------------------------------------|
D|------------------------------------------------------------------|
A|------------------------------------------------------------------|
E|------------------------------------------------------------------|

e|---2---0-2-3---2-3-5---3-2-0-----0-2------------------------------|
B|-------------------------------4----------------0-0---1-0---1-0---|
G|------------------------------------------------------------------|
D|------------------------------------------------------------------|
A|------------------------------------------------------------------|
E|------------------------------------------------------------------|

e|---------------------------------------------------------3-2-0----|
B|------------0-------------5-5-5-53-5-------------3-1-0---2-1------|
G|----------------0----------------------------0-2------------------|
D|------------------2----2-----------------2-4----------------------|
A|------------------------------------------------------------------|
E|------------------------------------------------------------------|

e|---7-8-7---7-8-7---7-8-7---5-7-8---7-535---5-7-5---5-7-5---5-7-5--|
B|------------------------------------------------------------------|
G|------------------------------------------------------------------|
D|------------------------------------------------------------------|
A|------------------------------------------------------------------|
E|------------------------------------------------------------------|

e|-----0-2-3---2-0-2---232-0----------------------------------------|
B|---0----------------------------54---------54---------54----------|
G|----------------------------------5-4--------5-4--------5-4-------|
D|------------------------------------------------------------------|
A|------------------------------------------------------------------|
E|------------------------------------------------------------------|
添加到谱单
X

添加到谱单

《 St Agnes And The Burning Train -- Sting 》加入
◎ 选择已有谱单 创建新的

公开 (默认不公开,欢迎创建有意思的"公开谱单")

创建取消

推荐语(选填)

X

请先登录Chordog


忘记密码