歌手头像-Eliot Morris

Anyway

1 2 3 4 5
x

音乐人: Eliot Morris

供谱者:
----------------------------------------------------------------------------
                             Anyway - Eliot Morris
----------------------------------------------------------------------------
Tabbed by:ratiug_player
Email:[email protected]

Tuning:eb Bb Gb Db Ab Eb


Intro/Chorus
This is the basic pattern, you'll have to figure out the strumming on your own.  It's 
easy
e|-------------------------------------------------------------------------|
B|-------------------------------------------------------------------------|
G|--9/12-12\--6-6-6-6-6/7-7\--4-4-4-4-4------------------------------------|
D|--x-x--x----x-x-x-x-x-x-x---x-x-x-x-x------------------------------------|
A|--x-x--x----x-x-x-x-x-x-x---x-x-x-x-x------------------------------------|
E|--8/10-10\--5-5-5-5-5/7-7\--3-3-3-3-3------------------------------------|


Prechorus thing

  (Em)(A) (Em)(A)               Pretty simple
e|-------------------------------------------------------------------------|
B|-----2-------2-----------------------------------------------------------|
G|-----2-------2-----------------------------------------------------------|
D|-2---2---2---2-----------------------------------------------------------|
A|-2-------2---------------------------------------------------------------|
E|-------------------------------------------------------------------------|

That's pretty much the whole song. There are some extra tabs here and there, but this is 
all you need to be able to play the song and sing along if you wish.  Great song.
添加到谱单
X

添加到谱单

《 Anyway -- Eliot Morris 》加入
◎ 选择已有谱单 创建新的

公开 (默认不公开,欢迎创建有意思的"公开谱单")

创建取消

推荐语(选填)

X

请先登录Chordog


忘记密码