歌手头像-Staggered Crossing

Further Again

1 2 3 4 5
x

音乐人: Staggered Crossing

供谱者:
Further Again- Staggered Crossing
CD: Staggered Crossing
Tabber: Mitchell ([email protected])
Tuning: Standard
/= slide   ~= hold note   V= vibrato   h= hammer on   p= pull off   ^= bend

I've been meaning to tab Further Again for a long time because it's a really good
tune, and I finally have. This isn't perfect, but it's the best I could manage.
If you have any comments/questions/fixer-uppers, you should email me :)

Main riff: I don't know if it's 100%, but hey it sounds close.
e ------------------------------------------------------------------
B ------------------------------------------------------------------
G ----------------------------------------------2-------------------
D -------3-5-3-----------3-5-3-----------3-5-3----5-3-3--3/5/3------
A -3-3-5-------5-----3-5-------5-----3-5-----------------------5-3--
E -----------------5---------------3--------------------------------

PRE & POST chorus/Chorus riffs:
e ---------------|-------------------------------------------------
B ---------------|-------------------------------------------------
G -5~------------|-7---5/7-7---5------------7---5/7-7---5----------
D -5~-----5~-----|-7---5/7-7---5--7--5-5----7---5/7-7---5--7--5-5--
A -3~-----5~-----|-5---3/5-5---3--7--5-5----5---3/5-5---3--7--5-5--
E --------3~-----|----------------5--3-3-------------------5--3-3--

Solo: It's pretty close to 100% again, Maybe I missed some hammer-ons.
e ----------------------------------------------------^^--^^--^^--
B --------------------------------------^--^--^^--^^--10--13--15--
G --------------------------------VV----7--9--10--12--------------
D -V---3--5--7--10h9p10-12--10h12-12/-----------------------------
A -5--------------------------------------------------------------
E ----------------------------------------------------------------

e ------------------------------------------------------------------------------
B -8/10-10--8/10-10--8/10-10--8/10-10--10-10--10-8----8----8--------------8/15--
G -------------------------------------------------10---10---10--7---7h10-------
D ------------------------------------------------------------------------------
A ------------------------------------------------------------------------------
E ------------------------------------------------------------------------------

e -----------------------15--13-----------------------------------
B -15-15-15-15-15-15-15---------15h13--15h13--15h13---------------
G ---------------------------------------------------14-12-14h12--
D ----------------------------------------------------------------
A ----------------------------------------------------------------
E ----------------------------------------------------------------

Chords: G5: 355xxx   A5: 577xxx   C5: x355xx   D5: x577xx

Tab originally from: http://diehardtabs.tripod.com
添加到谱单
X

添加到谱单

《 Further Again -- Staggered Crossing 》加入
◎ 选择已有谱单 创建新的

公开 (默认不公开,欢迎创建有意思的"公开谱单")

创建取消

推荐语(选填)

X

请先登录Chordog


忘记密码