歌手头像-Shocore

Bonecracker

1 2 3 4 5
x

音乐人: Shocore

供谱者:
Song: Bonecracker
Artist: Shocore
Album: Devil Rock Disco
As tabbed by Joe Muggah

Dropped D
<> = harmonics

Riff
e--13/15\13--10/12\10--8/10\8--13/15\13--10/12\10--8/10\8--
B----------------------------------------------------------
G----------------------------------------------------------
D----------------------------------------------------------
A----------------------------------------------------------
D----------------------------------------------------------

Chorus
e----------------------------------------------------------
B----------------------------------------------------------
G----------------------------------------------------------
D--3---0---2-----------3---0---2---------------------------
A--3---0---2---5---5---3---0---2---<5>---<5>---------------
D--3---0---2-----------3---0---2---------------------------

Verse (played once)
e----------------------------------------------------------
B----------------------------------------------------------
G----------------------------------------------------------
D--3---0---2-----------------------------------------------
A--3---0---2-----------------------------------------------
D--3---0---2-----------------------------------------------

Post-Chorus
e----------------------------------------------------------
B----------------------------------------------------------
G----------------------------------------------------------
D--3---0---2---------------3---0---2-----------------------
A--3---0---2---<5>---<5>---3---0---2---<5>---<5>-----------
D--3---0---2---------------3---0---2-----------------------

Bass
G----------------------------------------------------------
D----------------------------------------------------------
A--/5---------------/5-------------------------------------
D-------5---3---0--------5---3---0-------------------------


Riff
Chorus
Verse
Chorus
Riff
Post-Chorus
Riff
Verse
Chorus
Riff
Verse
Chorus
Post-Chorus

During the verse there is very little guitar. I included the
one and only bass riff in the song, so you can play that if 
you get bored during the verse.
添加到谱单
X

添加到谱单

《 Bonecracker -- Shocore 》加入
◎ 选择已有谱单 创建新的

公开 (默认不公开,欢迎创建有意思的"公开谱单")

创建取消

推荐语(选填)

X

请先登录Chordog


忘记密码