歌手头像-System of a Down

Dammit Acoustic

1 2 3 4 5
x

音乐人: System of a Down

供谱者:
     

           C            G          Am              F
          It's alright to tell me what you think about me
           C          G         Am           F
          I won't try to argue, or hold it against you
           C           G             Am             F
          I know that you're leavin, you must have your reasons
           C         G           Am            F
          The season is callin, your pictures are fallin down

     
        
         :CHORUS:


           C                         G                    Am
          And it's happened once again, I'll turn to a friend
                             F
          Someone that understands, sees through the master plan
           C                 G                                 Am
          But everybody's gone, and I've been there for too long
                              F
          To face this on my own, well I guess this is growing up

         
( ------> You can play this too on chorus instead the chords
         
          E|------8-----------3-----------5-----------1-------|
          B|----8-----------3-----------5---------------------|
          G|--------------------------4-------------2---------|
          D|--------------------------------------------------|
          A|--------------------------------------------------|
          E|--8-----------3-----------5-----------1-----------|


          E|------8-----------3-----------5-------------------|
          B|----8-----------3-----------5---------------------|
          G|--------------------------4-----------------------|
          D|--------------------------------------------------|
          A|----------------------------------------3---------| 
          E|--8-----------3-----------5-----------1-----------|C          G            Am            F
          And maybe I'll see you at a movie sneak preview
          C            G           Am          F
          You show up, and walk by on the arm of that guy
          C               G               Am             F
          And I'll smile, and you'll wave we'll pretend it's ok
          C               G             Am             F
          This showrave, it won't last when he's gone I won't come back

        

           :CHORUS:


           C                         G                    Am
          And it's happened once again, I'll turn to a friend
                             F
          Someone that understands, sees through the master plan
           C                 G                                 Am
          But everybody's gone, and I've been there for too long
                              F
          To face this on my own, well I guess this is growing up

         
( ------> E|------8-----------3-----------5-----------1-------|
          B|----8-----------3-----------5---------------------|
          G|--------------------------4-------------2---------|
          D|--------------------------------------------------|
          A|--------------------------------------------------|
          E|--8-----------3-----------5-----------1-----------|


          E|------8-----------3-----------5-------------------|
          B|----8-----------3-----------5---------------------|
          G|--------------------------4-----------------------|
          D|--------------------------------------------------|
          A|----------------------------------------3---------| 
          E|--8-----------3-----------5-----------1-----------|C G Am F
          well I guess this is growing up
          
添加到谱单
X

添加到谱单

《 Dammit Acoustic -- System of a Down 》加入
◎ 选择已有谱单 创建新的

公开 (默认不公开,欢迎创建有意思的"公开谱单")

创建取消

推荐语(选填)

X

请先登录Chordog


忘记密码