歌手头像-Royal Republic

Underwear

1 2 3 4 5
x

音乐人: Royal Republic

供谱者:
-------------------------------------------------------------------------------
                             Underwear - Royal Republic
-------------------------------------------------------------------------------
Tabbed by: PeterPun

First Tab here ^^

Tuning: 
half-step down


INTRO:
eb|-----------------|---------------|----------------|------------------|
Bb|-----------------|---------------|----------------|------------------|
Gb|---------------2-|4-4-4-4-4-2----|4-4-4-4-4-2-----|------------------| 
Db|---------0-2-4---|------------4-0|------------4-0-|-2-2-2-4-2-0------| x2
Ab|-2-2-2-2---------|---------------|----------------|-------------2-0--|
Eb|-----------------|---------------|----------------|------------------|


VERSE I:
eb|----|----|------|----|         eb|----|------|------|----|
Bb|----|----|------|----|         Bb|----|------|------|----|
Gb|-44-|-77-|-1212-|-99-|  x2 or  Gb|----|------|-1212-|-99-| 
Db|-44-|-77-|-1212-|-99-|         Db|-99-|-1212-|-1212-|-99-|
Ab|-22-|-55-|-1010-|-77-|         Ab|-99-|-1212-|-1010-|-77-|
Eb|----|----|------|----|         Eb|-77-|-1010-|------|----|
      
I play both one time, because its easier to pick. 
       


Verse II:
eb|----------|-----------|-------------|---------|----------|-----------|---------|---------|
Bb|----------|-----------|-------------|---------|----------|-----------|---------|---------|
Gb|----------|-----------|-1212-----12-|-99----9-|----------|-----------|-12------|---------|    
Db|-99-----9-|-1212---12-|-1212-----12-|-99----9-|-99-----9-|-1212---12-|-12------|---------|
Ab|-99-----9-|-1212---12-|-1010-----10-|-77----7-|-99-----9-|-1212---12-|-10------|---------|
Eb|-77-----7-|-1010---10-|-------------|---------|-77-----7-|-1010---10-|---------|---------|


Chorus:
eb|-------|--------|-------|--------|
Bb|-------|--------|-------|--------|
Gb|--     |---     |-12    |-9   -11|
Db|-9 x32 |-12 x8  |-12 x8 |-9 x8-11|
Ab|-9     |-12     |-10    |-7   --9|
Eb|-7-----|-10-----|-------|--------|

::INTRO::

::VERSE I & II::

EXTENDED-CHORUS:
eb|-------|--------|-------|-------|-------|-------|
Bb|-------|--------|-------|-------|-------|-------|
Gb|--     |--      |-12    |--     |---    |-12    |
Db|-9 x32 |-12 x8  |-12 x8 |-9 x32 |-12 x8 |-12 x8 |
Ab|-9     |-12     |-10    |-9     |-12    |-10    |
Eb|-7-----|-10-----|-------|-7-----|-10----|-------|


::INTRO::

::INTRO together with this:

eb|-------------------|----------------------|-----------------------|------------------|
Bb|----------------10-|12-12-12-12-12-10-----|-12-12-12-12-12-10-----|------------------|
Gb|------------9-11---|-----------------11---|------------------11---|-9-9-9-11-9-------|
Db|-9-9-9-9-12--------|-------------------12-|--------------------12-|------------12-9-7| x2
Ab|-------------------|----------------------|-----------------------|------------------|
Eb|-------------------|----------------------|-----------------------|------------------|


::SILENCE::

ENDING:
eb|-------|--------|-------|--------------|
Bb|-------|--------|-------|--------------|
Gb|--     |--      |-12    |-------9--7---|
Db|-9 x32 |-12 x8  |-12 x8 |-9--7--9--7---|
Ab|-9     |-12     |-10    |-9--7--7--5---|
Eb|-7-----|-10-----|-------|-7--5---------|
添加到谱单
X

添加到谱单

《 Underwear -- Royal Republic 》加入
◎ 选择已有谱单 创建新的

公开 (默认不公开,欢迎创建有意思的"公开谱单")

创建取消

推荐语(选填)

X

请先登录Chordog


忘记密码