歌手头像-Shinedown

Im Not Alright

1 2 3 4 5
x

音乐人: Shinedown

供谱者:
This is my first tab so I hope I did a good job and hopefully this will help someone 
else out. Pretty simple song using basic power chords in a drop-D tuning. If you like it 
please rate and comment. Enjoy!


 Intro Lick:
|-12p10----10----10----10----10h12----12----12----12----|
|-------10----10----10----10-------10----10----10----10-|
|-------------------------------------------------------|
|-------------------------------------------------------|
|-------------------------------------------------------|
|-------------------------------------------------------|

 Riff:
|------------------------|
|------------------------|
|---------7------------9-|
|---------7------------9-|
|-0-0-0-0-5----0-0-0-0-7-|
|-0-0-0-0------0-0-0-0---|

 Verse 1:
(D)
All dressed up
In a white straitjacket
Shut your mouth
No, you can't have it

(G)
Paper airplanes
Open window
(A)
Here today
(C)
And gone tomorrow

[Chorus]
(D)
I like to stare at the sun
And think about what I've done
(F)                        (G)
I lie awake in my great escape

(D)
I like crossing the line
And slowly losing my mind
(F)
Are you ok
        (G)
'Cuz I feel fine

(Bb)
Maybe it's me
              (D)
I'm just crazy
(Bb)      (G)                   (D)
Maybe I like that I'm not alright

[Riff]

 Verse 2: (chords are same as verse 1)
All messed up
And slightly twisted
Am I sick or am I gifted

Paper airplanes
Open window
Here today
And gone tomorrow

[Chorus]

 Bridge:
(Bb)    (C)
Wooo-ooh
                       (D)
I don't care if you apologize
I can't lie

(Bb)    (C)
Wooo-o0h
I can't lie

[Chorus]

(Bb)      (G)                (D)
Maybe I like that I'm not alright

[Riff]

End.
添加到谱单
X

添加到谱单

《 Im Not Alright -- Shinedown 》加入
◎ 选择已有谱单 创建新的

公开 (默认不公开,欢迎创建有意思的"公开谱单")

创建取消

推荐语(选填)

X

请先登录Chordog


忘记密码