歌手头像-Walls of Jericho

The New Ministry

1 2 3 4 5
x

音乐人: Walls of Jericho

供谱者:
Band: Walls of Jericho
Album: The American Dream
Song: The New Ministry
Tabbed: Eren Ogrul

* palm mute
d down stroke
u up strokte


e||----------||   |-------------||
B||----------||   |-------------||
G||--7-6--7--||x4 |-----7-6--7--||x4
D||----------||   |--0----------||
A||----------||   |--0----------||
D||----------||   |--0----------||


e||---------------------------------||
B||---------------------------------||
G||---------------------------------||
D||--0-0-0-0-0-0-0-0-0-0-0-0-8-7-3--||
A||--0-0-0-0-0-0-0-0-0-0-0-0-8-7-3--||
D||--0-0-0-0-0-0-0-0-0-0-0-0-8-7-3--||
     * * * * * * * * * * * *

e||-----------------------------------------------||
B||-----------------------------------------------||
G||-----------------------------------------------||x4
D||--0-0-0-0-0-0-0-0-0-0-0-0-0-0-0-0-0-0-0-8-7-3--||
A||--0-0-0-0-0-0-0-0-0-0-0-0-0-0-0-0-0-0-0-8-7-3--||
D||--0-0-0-0-0-0-0-0-0-0-0-0-0-0-0-0-0-0-0-8-7-3--||
     * * * * * * * * * * * * * * * * * * *


     d u d d u d d d d u d d u d d d d d d
e||-----------------------------------------------||
B||-----------------------------------------------||
G||-----------------------------------------------||x4
D||--0-0-0-0-0-0-0-0-0-0-0-0-0-0-0-0-0-0-0-8-7-3--||
A||--0-0-0-0-0-0-0-0-0-0-0-0-0-0-0-0-0-0-0-8-7-3--||
D||--0-0-0-0-0-0-0-0-0-0-0-0-0-0-0-0-0-0-0-8-7-3--||
     * * * * * * * * * * * * * * * * * * *


e||-------------||
B||-------------||
G||-----7-6--7--||x2
D||--0----------||
A||--0----------||
D||--0----------||


     d u d d u d d d d u d d u d d d d d d
e||-----------------------------------------------||
B||-----------------------------------------------||
G||-----------------------------------------------||x3
D||--0-0-0-0-0-0-0-0-0-0-0-0-0-0-0-0-0-0-0-8-7-3--||
A||--0-0-0-0-0-0-0-0-0-0-0-0-0-0-0-0-0-0-0-8-7-3--||
D||--0-0-0-0-0-0-0-0-0-0-0-0-0-0-0-0-0-0-0-8-7-3--||
     * * * * * * * * * * * * * * * * * * *
     
     
     d u d d u d d d d u d d u d d d d d d
e||------------------------------------------||
B||------------------------------------------||
G||------------------------------------------||
D||--0-0-0-0-0-0-0-0-0-0-0-0-0-0-0-0-0-0-0---||
A||--0-0-0-0-0-0-0-0-0-0-0-0-0-0-0-0-0-0-0---||
D||--0-0-0-0-0-0-0-0-0-0-0-0-0-0-0-0-0-0-0---||
     * * * * * * * * * * * * * * * * * * *
添加到谱单
X

添加到谱单

《 The New Ministry -- Walls of Jericho 》加入
◎ 选择已有谱单 创建新的

公开 (默认不公开,欢迎创建有意思的"公开谱单")

创建取消

推荐语(选填)

X

请先登录Chordog


忘记密码