歌手头像-Buckethead

Bantam Rising

1 2 3 4 5
x

音乐人: Buckethead

供谱者:
Buckethead - Bantam Rising


Riff one
e||-----------------------||
b||----------13--14-------||
g||--10-10------------13--||
d||-----------------------||
a||-----------------------||
E||-----------------------||

Riff two
e||--------------------||
b||--------------------||
g||--------5--6--------||
d||--3-3----------6----||
a||--------------------||
E||--------------------||

"verse"
e||-------------|-----------|------------||
b||-------------|-----------|------------||
g||------6---5--|-----------|------------||
d||--3---4---3--|--3--6--4--|--3--6--5---||
a||--1---4---3--|--1--4--2--|--1--4--3---||
E||--1----------|--1--4--2--|--1--4--3---||

pre-outro
e||-----------------||
b||-----------------||
g||-----------------||
d||-----------------||
a||--1-/-9-\-8-\-4--||
E||--1-/-9-\-8-\-4--||

outro (strum fast)
e||---------------||
b||---------------||
g||---------------||
d||-1--4-3--4--2--||
a||-1--4-3--4--2--||
E||-1--x-x--4--2--||
添加到谱单
X

添加到谱单

《 Bantam Rising -- Buckethead 》加入
◎ 选择已有谱单 创建新的

公开 (默认不公开,欢迎创建有意思的"公开谱单")

创建取消

推荐语(选填)

X

请先登录Chordog


忘记密码