歌手头像-Arsonists Get All the Girls

Portals intro

1 2 3 4 5
x

音乐人: Arsonists Get All the Girls

供谱者:
OK THIS SONG TOOK ME FOREVER TO TAB LET ALONE FIGURE OUT HOW TO PLAY IT. i used audacity 
slow down the audio, so i know all of these notes are spot on. its just that they are 
in a very fast way, making it difficult. i still have a hard time playing it. 
well, here you go.. PORTALS

-------------------------------------------------------------------------------
                    PORTALS - Arsonists Get All The Girls
-------------------------------------------------------------------------------
Tabbed by: JP

Tuning: Drop C

the song starts with some keyboard effects, followed by a keyboard solo, this is the 
that plays along with the keyboard solo. when played slow it might sound wrong, but its 
its just awkward.

D|----------------------------------------------------------------------|
A|----------------------------------------------------------------------|
F|----------------------------------------------------------------------|
C|----------------------------------------------------------------------|
G|----------------5--7-----7--8-----------5-----------------5-----------|
C|----0--5--7--8--------0--------0--7--8-----8--0--5--7--8-----8--0-----|


D|--------------------------|
A|--------------------------|
F|--------------------------|
C|--------------------------| x2
G|-7--------------7--8------|
C|----8--0--5--7------------|

VERSE (when the singing starts)

D|-------------------------------------|
A|-------------------------------------|
F|-------------------------------------|
C|-------------------------------------|
G|-------------5h7--7h8--8--10--8--7---|
C|-0--5--7--8--------------------------|
   .  .  .  .


D|-------------------------------------|
A|-------------------------------------|
F|-------------------------------------| x4
C|-------------------------------------|
G|-------------5h7--7h8--8/10--6-------|
C|-0--5--7--8--------------------------|
   .  .  .  .

PART AFTER VERSE

D|-------------------------------------|
A|-------------------------------------|
F|-------------------------------------|
C|-5--5--5--5-----0---0--0--0-0--------|
G|-5--5--5--5-----0---0--0--0-0--------|
C|-5--5--5--5-----0---0--0--0-0--------|
                      .  .  . .


D|-------------------------------------|
A|-------------------------------------|
F|-------------------------------------|
C|-3--3--3--3-----0---0--0--0-0--------| x4
G|-3--3--3--3-----0---0--0--0-0--------|
C|-3--3--3--3-----0---0--0--0-0--------|
                      .  .  . .
添加到谱单
X

添加到谱单

《 Portals intro -- Arsonists Get All the Girls 》加入
◎ 选择已有谱单 创建新的

公开 (默认不公开,欢迎创建有意思的"公开谱单")

创建取消

推荐语(选填)

X

请先登录Chordog


忘记密码