歌手头像-Jason Mraz

Love Is Real

1 2 3 4 5
x

音乐人: Jason Mraz

供谱者:
Love Is Real
Standard Tuning
No Capo

PART 1:
       A       D       E       A
e |----0-------0-------0-------0-------|
b |----2-------3-------0-------2-------|
g |----2-------2-------1-------2-------|
d |----2-------0-------2-------2-------|
a |----0------(0)------2-------0-------|
E |----x---------------0-------x-------|

PART 2:
       D       E       A       D
e |----0-------0-------0-------0-------|
b |----3-------0-------2-------3-------|
g |----2-------1-------2-------2-------|
d |----0-------2-------2-------0-------|
a |---(0)------2-------0------(0)------|
E |------------0-------x---------------|

PART 3:
       C#7     B7
e |---(4)------0-------|
b |----0-------0-------|
g |----4-------2-------|
d |----3-------1-------|
a |----4-------2-------|
E |----x-------x-------|

PART 4:
       A       B7      C#7     D       E
e |----0-------0------(4)------0-------0-------|
b |----2-------0-------0-------3-------0-------|
g |----2-------2-------4-------2-------1-------|
d |----2-------1-------3-------0-------2-------|
a |----0-------2-------4------(0)------2-------|
E |----x-------x-------x-------0-------x-------|
添加到谱单
X

添加到谱单

《 Love Is Real -- Jason Mraz 》加入
◎ 选择已有谱单 创建新的

公开 (默认不公开,欢迎创建有意思的"公开谱单")

创建取消

推荐语(选填)

X

请先登录Chordog


忘记密码