歌手头像-Jonas Brothers

Thats Just The Way We Roll

1 2 3 4 5
x

音乐人: Jonas Brothers

供谱者:
Thats Just The Way We Roll - The Jonas Brothers Complete Tab

Tuning: Standard EADGBe

The verse is palm muted on and off - listen to it carefully to figure out the palm 
pattern.

Update: 10/28/07
Tab completely rewritten. Enjoy.

Update 08/22/08:
Just to clear up confusion, the main riff can be played a few different ways, I think 
one sounds best but you can try the others too, in the other tabs.

Main Riff
e |-------------------------------------|
B |-------------------------------------|
G |-11-7~~-5-7~-5-7-5-4~----------------|
D |-------------------------------------|
A |-------------------------------------|
E |-------------------------------------|2x

Verse
e|--------------------------------|
B|--------------------------------|
G|--7---5-------7---5-------------|
D|--7---5---5---7---5--5--2--5--7-|
A|--5---3---5---5---3--5--2--5--7-|
E|----------3----------3--0--3--5-|
PM [....................]

Chorus
e |-------------------------------------|
B |-------------------------------------|
G |----7-----7-----7--9--11--12---------|
D |-5--7--5--7--5--7--9--11--12---------|
A |-5--5--5--5--5--5--7--9---10---------|
E |-3-----3-----3-----------------------|

Main Riff
e |-------------------------------------|
B |-------------------------------------|
G |-11-7~~-5-7~-5-7-5-4~----------------|
D |-------------------------------------|
A |-------------------------------------|
E |-------------------------------------|

Verse
e|--------------------------------|
B|--------------------------------|
G|--7---5-------7---5-------------|
D|--7---5---5---7---5--5--2--5--7-|
A|--5---3---5---5---3--5--2--5--7-|
E|----------3----------3--0--3--5-|
PM [....................]

Chorus
e |-------------------------------------|
B |-------------------------------------|
G |----7-----7-----7--9--11--12---------|
D |-5--7--5--7--5--7--9--11--12---------|
A |-5--5--5--5--5--5--7--9---10---------|
E |-3-----3-----3-----------------------|

e|----------------|
B|----------------|
G|---------7--9---|
D|--2---5--7--9---|
A|--2---5--5--7---|
E|--0---3---------|


---thump thump thump---

Chorus
e |-------------------------------------|
B |-------------------------------------|
G |----7-----7-----7--9--11--12---------|
D |-5--7--5--7--5--7--9--11--12---------|
A |-5--5--5--5--5--5--7--9---10---------|
E |-3-----3-----3-----------------------|

Main Riff
e |-------------------------------------|
B |-------------------------------------|
G |-11-7~~-5-7~-5-7-5-4~----------------|
D |-------------------------------------|
A |-------------------------------------|
E |-------------------------------------| x2

e |-------|
B |-------|
G |---7~--|
D |---7~--|
A |---5~--|
E |-------|
添加到谱单
X

添加到谱单

《 Thats Just The Way We Roll -- Jonas Brothers 》加入
◎ 选择已有谱单 创建新的

公开 (默认不公开,欢迎创建有意思的"公开谱单")

创建取消

推荐语(选填)

X

请先登录Chordog


忘记密码