歌手头像-Lacuna Coil

Swamped

1 2 3 4 5
x

音乐人: Lacuna Coil

供谱者:
Standard Tuning EADGBe

[Intro]
e|--------------------------------------------------------------------------|
B|--------------------------------------------------------------------------|
G|--------------------------------------------------------------------------|
D|-6-7p6-6-6-6-6------------------------------------------------------------|
A|---------------5-5/-7-7--7---7-7/8--8-8-8-8\--5-5/-7-7--7-----------------|
E|--------------------------------------------------------------------------|

[Bridge]
                                (x4)                             
e|------------------------------------|
B|------------------------------------|
G|------------------------------------|  
D|--2------3-2------2-2-2-2-3-2-------|
A|--2--22--3-2--22--2-2-2-2-3-2--222--|
E|--0--00--1-0--00--0-0-0-0-1-0--000--|
P.M.   ..       ..    .   .      ...              
 
[Interlude]
e|------|
B|------|
G|------|
D|--2~--|
A|--2~--|
E|--0~--|

fades out into the verse, played with the thirst beat of the verse

[Verse]
(Did you notice it's the intro played backwards? cool, huh?)
e|----------------------------------------------------------------------|
B|----------------------------------------------------------------------|
G|----------------------------------------------------------------------| 
D|----------------------------------------------------------------------|
A|--7--7-7-\5-5--/8-8-8-8--8\7-7---7--7-7-\5-5--/11-11-11-11--11h12-11--|
E|----------------------------------------------------------------------|

[Chorus]
(Guitar 1)
e|---------------------|
B|---------------------|
G|--9----5----7----9---|   (x2)
D|--9----5----7----9---|
A|--7----3----5----7---|
E|---------------------|

(Guitar 2)  plays more at the chorus, but this part was all that I could hear, cause it's so quiet (sorry)
e|-------------|
B|-------------|
G|-------------|  (x2)
D|-----7h9-9---|
A|---7---------|
E|-------------|

[Bridge 2]
(Guitar 1) (the quiet one in the middle)
e|-------------------------------------------------------------------------|
B|-------------------------------------------------------------------------|
G|-------------------------------------------------------------------------|
D|----2h3-3-2---2h3-------2h3-3-2-----2h3-------2h3-3-2---2h3-------2h3-3-2|
A|22--2h3-3-222-2h3-2222222h3-3-2--22-2h3-2222222h3-3-222-2h3-2222222h3-3-2|
E|00--0h1-1-000-0h1-0000000h1-1-0--00-0h1-0000000h1-1-000-0h1-0000000h1-1-0|
PM..         ..     ......         ..     ......       ..     ......

(Guitar 2) 
(listen to the song for timing)
e|-------------------------------------------------------------------------|
B|-------------------------------------------------------------------------|
G|-------------------------------------------------------------------------|
D|--------------2---------------------2-2---------------------2-----------2|
A|22-----%------2----------%----------2-2---------%-----------2-----%-----2|
E|00------------0---------------------0-0---------------------0-----------0|
PM..

[Outro]
e|-------|
B|-------|
G|-------| played with thirst beat of the Intro
D|--2~---|
A|-------|
E|-------|

ORDER:

INTRO
BRIDGE X2
INTERLUDE / VERSE
VERSE X4
CHORUS
BRIDGE
INTERLUDE / VERSE X4
CHORUS X2
BRIDGE X2
BRIDGE 2
CHORUS X2
OUTRO / INTRO
添加到谱单
X

添加到谱单

《 Swamped -- Lacuna Coil 》加入
◎ 选择已有谱单 创建新的

公开 (默认不公开,欢迎创建有意思的"公开谱单")

创建取消

推荐语(选填)

X

请先登录Chordog


忘记密码