歌手头像-The Beautiful Unknown

Perfect Wave

1 2 3 4 5
x

音乐人: The Beautiful Unknown

供谱者:
if you know chords the progression is as follows

D, F#, Bm, C, G, D

the intro is tough to get exact but i can guide you to almost perfect


D                             F#                      Bm                 C                      G

e---------------------2---------2-------------------3--------3--------------|
B--------7------------2---------3---------5---------3--------3--------7-----|
G--------7------------3---------4---------5---------4--------4--------7-----|
D--------7------------4---------4---------5---------5--------5--------7-----|
A--5-5-------5--------4----2-2-----2--3-3----3------5--------5----5-5-------|
E----------------2-2-----2----------------------3-3----3-2-2----3-----------|

 throw in that transition........then it repeats
             |
             v
e-------------------------------------------------------------------|
B---------------7---------------------------------------------------|
G--2--4--6------7---------------------------------------------------|
D---------------7---------------------------------------------------|
A--0--2--4--5-5-----------------------------------------------------|
E-------------------------------------------------------------------|


And the Chorus is most likely done in power chords

e--------------------------------------------------------------------------|
B--------------------------------------------------------------------------|
G--7-7--------------4-4-----5-5------------------7-7-----------------------|
D--7-7------4-4-----4-4-----5-5----5-5-----5-5---7-7-----------------------|
A--5-5--5---4-4-----2-2--2--3-3-3--5-5-----5-5---5-5-----------------------|
E -----------2-2--2-----------------3-3--3--2-2-3--------------------------|
添加到谱单
X

添加到谱单

《 Perfect Wave -- The Beautiful Unknown 》加入
◎ 选择已有谱单 创建新的

公开 (默认不公开,欢迎创建有意思的"公开谱单")

创建取消

推荐语(选填)

X

请先登录Chordog


忘记密码