歌手头像-Jason Mraz

Opportunist Lover O Lover

1 2 3 4 5
x

音乐人: Jason Mraz

供谱者:
Opportunist Lover (O. Lover)
Standard Tuning
Capo on the 3rd Fret


Intro
e--2--3--|
b--3--3--|
g--4--0--|
d--4--0--|
a--2--2--|
e-----3--|

Verse
e-----0--6--|
b--4--0--4--|
g--4--9--0--|
d--4--6--5--|
a--x--7--6--|
e--4--------|

2nd Verse Part/Chorus
e--4--6--|
b--5--4--|
g--6--0--|
d--6--5--|
a--4--6--|
e--------|

Bridge
e-----5--0--4-6--|
b--4--5--0--5-4--|
g--4--6--9--6-0--|
d--4--7--6--6-5--|
a--x--7--7--4-6--|
e--4--5----------|

Scat
e--2--3--2--3--5----3-|
b--3--3--3--3--3--2-3-|
g--4--0--4--0--0--2-0-|
d--4--0--4--0--4--2-0-|
a--2--2--2--2--5--x-2-|
e-----3-----3-----2-3-|

Ending
e-----------------------------------------------------------|
b-----------------------------------------------------------|
g-----------------------------------------------------------|
d-----------------------------------------------------------|
a--6-4-----------6-4-----------7-6--4--------6-4------------|
e-------7-6-2-4-------7-6-2-0---------7-6-5------7-6-4-2-4--|
添加到谱单
X

添加到谱单

《 Opportunist Lover O Lover -- Jason Mraz 》加入
◎ 选择已有谱单 创建新的

公开 (默认不公开,欢迎创建有意思的"公开谱单")

创建取消

推荐语(选填)

X

请先登录Chordog


忘记密码