歌手头像-Buckethead

Sleeper Agents

1 2 3 4 5
x

音乐人: Buckethead

供谱者:
Sleeper Agents by Buckethead
from Funnel Weaver

A.
3 1 1 1 2 1 3 1 1 1 1 1
-----------------------------------------------------------------------|
----11-11-11--12------------11-11-11--12-------------------------------|
-----------------11~---------------------------------------------------|
-13----------------------13--------------9~----------------------------|
-----------------------------------------------------------------------|
-----------------------------------------------------------------------|

-----------------------------------------------------------------------|
----11-11-11--12------------11-11-11--12-------------------------------|
-----------------11~---------------------------------------------------|
-13----------------------13--------------9~----------------------------|
-----------------------------------------------------------------------|
-----------------------------------------------------------------------|

3 3 3 1 3 1 2 2 2 1 3 3 3 1 3 1 3 3 3 1
-----------------------------------------------------------------------|
-----------------------------------------------------------------------|
-----------------------------------------------------------------------|
-----------------------------------------------------------------------|
-------2-4-----s7-7-7-6~-----------2-4-----s9-9-7~---------------------|
-4-4-4-----4~----------------4-4-4-----4~------------------------------|

-----------------------------------------------------------------------|
-----------------------------------------------------------------------|
-----------------------------------------------------------------------|
-----------------------------------------------------------------------|
-------2-4-----s7-7-7-6~-----------2-4---------------------------------|
-4-4-4-----4~----------------4-4-4-----4~------------------------------|

-----------------------------------------------------------------------|
-----------------------------------------------------------------------|
-----------------------------------------------------------------------|
-----------------------------------------------------------------------|
-------2-4-----s7-7-7-6~-----------2-4-----s9-9-7~---------------------|
-4-4-4-----4~----------------4-4-4-----4~------------------------------|

-----------------------------------------------------------------------|
-----------------------------------------------------------------------|
-----------------------------------------------------------------------|
-----------------------------------------------------------------------|
-------2-4-----s7-7-7-6~-----------2-4---------------------------------|
-4-4-4-----4~----------------4-4-4-----4~------------------------------|

B.
-----------------------------------------------------------------------|
----11-11-11--12------------11-11-11--12-------------------------------|
-----------------11~---------------------------------------------------|
-13----------------------13--------------9~----------------------------|
-----------------------------------------------------------------------|
-----------------------------------------------------------------------|

-----------------------------------------------------------------------|
----11-11-11--12------------11-11-11--12-------------------------------|
-----------------11~---------------------------------------------------|
-13----------------------13--------------9~----------------------------|
-----------------------------------------------------------------------|
-----------------------------------------------------------------------|

-----------------------------------------------------------------------|
-----------------------------------------------------------------------|
-----------------------------------------------------------------------|
-----------------------------------------------------------------------|
-------2-4-----s7-7-7-6~-----------2-4-----s9-9-7~---------------------|
-4-4-4-----4~----------------4-4-4-----4~------------------------------|

-----------------------------------------------------------------------|
-----------------------------------------------------------------------|
-----------------------------------------------------------------------|
-----------------------------------------------------------------------|
-------2-4-----s7-7-7-6~-----------2-4---------------------------------|
-4-4-4-----4~----------------4-4-4-----4~------------------------------|
添加到谱单
X

添加到谱单

《 Sleeper Agents -- Buckethead 》加入
◎ 选择已有谱单 创建新的

公开 (默认不公开,欢迎创建有意思的"公开谱单")

创建取消

推荐语(选填)

X

请先登录Chordog


忘记密码