歌手头像-Bolt Thrower

No Guts No Glory

1 2 3 4 5
x

音乐人: Bolt Thrower

供谱者:
: BOLT THROWER - No guts, no glory
                             tabbed by Astaroth


Tuning : 

Eb-------------I
Bb-------------I
F#-------------I
C#----3--------I
G#----3--------I
C#----3--------I 
 _____|
|
normal E power chord with this tuning



 Riff
 3x 
|-------------------------------------------------------|
|-------------------------------------------------------|
|-------------------------------------------------------| 
|-------------------------------------------------------|
|---------------4\3-------------------------------------|
|-0-0-0-0-0-0-0-4\3-0-0-0-0-0-43-0-0-0-0-0-43-0-0-1-4-1-| 

 1x
|------------------------------------------------------|
|------------------------------------------------------|
|------------------------------------------------------|
|------------------------------------------------------|
|---------------4\3------------------------------------|
|-0-0-0-0-0-0-0-4\3-0-0-0-0-0-43-0-0-0-0-0-0-0-6-6-676-| 

 Solo    listen to the song 
 played 2x                 to get the rhythm
|-------------------------|------------------|------------------------------------/10--|
|----10--8h10p8----8------|------------------|-----------------------------------------|
|-7-------------11---11-8-|-7h8p7h8p7h8p7h11-|-11h12p11----11h12p11---11h12p11---------|
I-------------------------|------------------|---------12----------12---------12-------|
|-------------------------|------------------|-----------------------------------------|
|-------------------------|------------------|-----------------------------------------|


 Chorus
           ... the last advance...
|--------------------------------|
|--------------------------------|
|--------------------------------| 
|--------------------------------|
|-0-----4----1--3---1--3---1-3-1-|
|-0-----4----1--3---1--3---1-3-1-|
|
|--------------------------------|
|--------------------------------|
|--------------------------------|  
|-7-----11---8--10--8--10--8-108-|
|-5-----9----6--8---6--8---6-8-6-|
|--------------------------------| 


 Bridge
|--------------------------------------------------|
|--------------------------------------------------|
|-----7-6------5--0--108-7------7-6----3-0-3-5-6---| 
|-----5-4-7---------------------5-4-7------------6-|
|-0-------5-----------------0-------5--------------|
|-0-------------------------0----------------------|
|
|--------------------------------------------------I
|--------------------------------------------------|
|--------------------------------------------------| 
|--------------------------------------------------|
|-0---5-4-0-----------------0---5-4-0--3-0-3-5-6-1-|
|-0---5-4-0-----------------0---5-4-0--3-0-3-5-6-1-|


 Fill played after the chorus is played the last time at the end of the song
|--------------------------------
|--------------------------------
|-7--8---7--8--7-8---------------
|-5--6---5--6--5-6---------------
|------------------0-------------
|------------------0-------------  
|                  * here comes the cannon blast
|--------------------------------
|--------------------------------
|--------------------------------
|--------------------------------
|-0--1---0--1--0-1-0-------------
|-0--1---0--1--0-1-0-------------

Any corrections to [email protected]
添加到谱单
X

添加到谱单

《 No Guts No Glory -- Bolt Thrower 》加入
◎ 选择已有谱单 创建新的

公开 (默认不公开,欢迎创建有意思的"公开谱单")

创建取消

推荐语(选填)

X

请先登录Chordog


忘记密码